Player

Voz da Verdade - O Escudo

Intro: D Em A D

D Em
Por toda minha vida, Ó Senhor te louvarei
A D
Pois meu fôlego é tua vida, e nunca me cansarei
Em
Posso ouvir a sua voz, é mais doce do que o mel
A D
Que me tira desta cova, e me leva até o céu
Em
Já ví fogo e terremoto, vento forte que passou
A D# D
Já vivi tantos perigos, mas tua voz me acalmou
Em
Tú dás ordem as estrelas, e ao mar os seus limites
A D# D
Eu me sinto tâo seguro, no teu colo Ó altíssimo
D Bm F#m G A
Não há ferrolhos, nem portas, que se fechem diante
D Bm F#m G
Da tua voz, não há doenças, nem culpas, que fiquem
A D Bm F#m
De pé diante de nós, e a tempestade, se acalma, na
G A D Bm F#m
Voz daquele que tudo criou, pois sua palavra, é pura
G A D
Escudo para os que nele crêem

Solo 2x: Bm F#m G A D
(Refrão)

E|----------------------------------------------------------|
B|-----7--------10--7----10--10--10--8--7--7--5--5--5----7--|
G|-7-9---9-7-7-------------------------------------7--------|
D|----------------------------------------------------------|
A|----------------------------------------------------------|
E|----------------------------------------------------------|

E|----------14------------17--14--17-17--15-15--14--12/14--12--15--14----|
B|-7/15--17----17--15---17--------------------------------------------15-|
G|-----------------------------------------------------------------------|
D|-----------------------------------------------------------------------|
A|-----------------------------------------------------------------------|
E|-----------------------------------------------------------------------|

----------------- Acordes -----------------
A = X 0 2 2 2 0
Bm = X 2 4 4 3 2
D = X X 0 2 3 2
D# = X 6 5 3 4 3
Em = 0 2 2 0 0 0
F#m = 2 4 4 2 2 2
G = 3 2 0 0 0 3