Player

Marquinhos Gomes - Ele não desiste de você

Intro: C G F/A F9

Parte 1
C G
E|---1-----0--------------------------------|
B|-------1-----1h3-------3------------------|
G|-0---0-----0---------0--------------------|
D|-------------------0----------------------|
A|---3--------------------------------------|
E|-----------------3------------------------|

Parte 2
F/A F9
E|---1------0-----------3-------------------|
B|--------1-----1-----1---------------------|
G|-0----2-----2-----2-----------------------|
D|----------------3-------------------------|
A|---0--------------------------------------|
E|------------------------------------------|

Parte 3
C G
E|---1-----0--------------------------------|
B|-------1-----1h3-------3------------------|
G|-0---0-----0---------0--------------------|
D|-------------------0----------------------|
A|---3--------------------------------------|
E|-----------------3------------------------|

Parte 4
F/A F9
E|---1------0-------------------------------|
B|--------1-----1----1---1------------------|
G|-0----2-----2------0h2-0------------------|
D|----------------3--------3----------------|
A|---0--------------------------------------|
E|------------------------------------------|

[Primeira Parte]

C G/B
Não importa quem você é
Am
Não importa o que você fez
F7M C
Jesus conhece o seu interior também
G/B
Quantas vezes você caiu
Am
Tentando acertar
F7M
Mas a tristeza e o desespero
C
Te fizeram chorar

Parte 1
C G/B
E|-3---3---3---3----3---3---3---3-----------|
B|-1---1---1---1----3---3---3---3-----------|
G|---0---0---0---0----0---0---0---0---------|
D|------------------------------------------|
A|-3----------------2-----------------------|
E|------------------------------------------|

Parte 2
Am7 F9
E|-3---3---3---3----3---3---3---3-----------|
B|-1---1---1---1----1---1---1---1-----------|
G|---0---0---0---0----2---2---2---2---------|
D|------------------3-----------------------|
A|-0----------------------------------------|
E|------------------------------------------|

Parte 3
C G/B
E|-3---3---3---3----3---3---3---3-----------|
B|-1---1---1---1----3---3---3---3-----------|
G|---0---0---0---0----0---0---0---0---------|
D|------------------------------------------|
A|-3----------------2-----------------------|
E|------------------------------------------|

Parte 4
Am7 Fm/Ab
E|-3---3---3---3----------------------------|
B|-1---1---1---1-----6----------------------|
G|---0---0---0---0---5----------------------|
D|-------------------3----------------------|
A|-0----------------------------------------|
E|-------------------4----------------------|

[Pré-refrão]

C G/B
Não importa pra onde você foi
Am
Se na escuridão da noite
F7M
Ele apaga o seu passado
G
E não desiste de você

[Refrão]
C
Ele não desiste de você
G/B
Ele se importa com você
Am
Ele compreende o seu caminhar
F7M
Nunca vi um amor tão grande assim

C
Ele não desiste de você
G/B
Ele se importa com você
Am
Ele compreende o seu caminhar
F7M
Nunca vi um amor tão grande assim
C G/B Am F7M
Ele não desiste

[Primeira Parte]

C G/B
Não importa quem você é
Am
Não importa o que você fez
F7M C
Jesus conhece o seu interior também
G/B
Quantas vezes você caiu
Am
Tentando acertar
F7M
Mas a tristeza e o desespero
C
Te fizeram chorar

[Pré-refrão]
G/B
Não importa pra onde você foi
Am
Se na escuridão da noite
F7M
Ele apaga o seu passado
G
E não desiste de você

[Refrão]
C
Ele não desiste de você
G/B
Ele se importa com você
Am
Ele compreende o seu caminhar
F7M
Nunca vi um amor tão grande assim

C
Ele não desiste de você
G/B
Ele se importa com você
Am
Ele compreende o seu caminhar
F7M
Nunca vi um amor tão grande assim

[Final]

C
Ele não desiste
C/B
Não desiste
Am
Ele não desiste
F7M
De você

----------------- Acordes -----------------
Am = X 0 2 2 1 0
Am7 = X 0 2 0 1 0
C = X 3 2 0 1 0
C/B = X 2 2 0 1 0
F/A = 5 X 3 5 6 X
F7M = 1 X 2 2 1 X
F9 = 1 3 5 2 1 1
Fm/Ab = 4 3 3 1 X X
G = 3 2 0 0 0 3
G/B = X 2 0 0 3 3