Player

Diante do Trono - Canção do apocalipse

Intro: D9

D9 Am7
Digno é o Cordeiro, que foi morto
C9 G
Santo, Santo Ele é
D9 Am7
Um novo cântico, ao que se assenta
C9 G
Sobre o trono do céu

D9
Santo, Santo, Santo
Am7
Deus Todo Poderoso
C9 G
Que era e é e há de vir
D9
Com a criação eu canto
Am7
Louvores ao Rei dos reis
C9
És tudo para mim
G D9 Am7 C9 G
E eu Te adorarei

Solo 1:
E|-------------------------------------------------------------------------------------|
B|-------------------------------------------------------------------------------------|
G|----12-11----------11-11h12-11----11h12-11------------------------------12-12/14-----|
D|12--------12-12/14-------------12----------12-12/14-12-10-9-10-10/12--12-------------|
A|-------------------------------------------------------------------------------------|
E|-------------------------------------------------------------------------------------|

D9 Am7
Está vestido, do arco-íris
C9 G
Sons de trovão, luzes, relâmpagos
D9
Louvores, honra e glória
Am7
Força e poder pra sempre
C9 G
Ao único Rei eternamente
D9
Santo, Santo, Santo
Am7
Deus Todo Poderoso
C9 G
Que era e é e há de vir
D9
Com a criação eu canto
Am7
Louvores ao Rei dos reis
C9
És tudo para mim
G D9 Am7 C9 G
E eu Te adorarei

Solo 2:
E|----------------------------------------------------------------------------------------|
B|----------------------------13-12-14-12h13-12h13-14-------------------------------------|
G|12-11-----------------------------------------------12h13-12h13-14----------------------|
D|------12-14--14/16-14\12-14-------------------------------------------------------------|
A|----------------------------------------------------------------------------------------|
E|----------------------------------------------------------------------------------------|

D9 Am7
Maravilhado, extasiado
C9 G ( Am7 F C9 G ) (2x)
Eu fico ao ouvir Teu nome
D9 Am7
Maravilhado, extasiado
C9 G
Eu fico ao ouvir Teu nome
D9
Jesus, Teu nome é força
Am7
É fôlego de vida
C9 G ( Am7 F C9 G )
Misteriosa água viva

Solo de guitarra e teclado:
E|-------------------------------------------------------------------------------------|
B|---------------------------------------------------10-12-13-10-12-13-13-12-10-8-5-8-8|
G|--------------------------------------------------9----------------------------------|
D|7-9-10-7-9-10-10-9-7-5-------9-10-9--------9-10-12-----------------------------------|
A|----------------------7-10-10------12-10-12------------------------------------------|
E|-------------------------------------------------------------------------------------|

D9
Santo, Santo, Santo
Am7
Deus Todo Poderoso
C9 G
Que era e é e há de vir
D9
Com a criação eu canto
Am7
Louvores ao Rei dos reis
C9
És tudo para mim
G D9 Am7 C9 G
E eu Te adorarei

----------------- Acordes -----------------
Am7 = X 0 2 0 1 0
C9 = X 3 5 5 3 3
D9 = X X 0 2 3 0
F = 1 3 3 2 1 1
G = 3 2 0 0 0 3